HomeRepertoireTestimonialsPricesContact UsPhotosBlog
Wedding guitarist - South Wales, classical Spanish and popular music for weddings and special events. Covers all of England, Wales and Scotland.
acoustic guitar music for weddings, restaurants and birthday parties.
Can't help falling in love tab
Can't help falling in love arrangement.


Pretty much like some of the other tabs out there!
[Intro]

         F       G       Am      G          C        G       C
E||------------------------------------------0-----1---0---------------------------0--------|
B||------------------0---------1---------3-----------------------3---------1-----1---1------|
G||---0----2--------------0---------2-----------------------0---------0--------0-------0----|
D||-------------3-------0---0-----2---2---------0---------2---2-----0---0----2-----------2--|
A||-----------3---3------------0---------2-------------3-------------------3----------------|
E||--------1---------3-------------------------------------------3--------------------------|


[Verse]

      C         G        Am                       F          C         G
E||-------------3-----------------------------0---1----------0------------------------------|
B||---1-------------------1----------------3-----------1----------1----3--------------------|
G||--------0---------0---------2---------------------2---2------0---0-------0---------0-----|
D||------2---2-----0---0-----2---2-----0----------3-----------------------0----------0------|
A||---3---------2---------0----------------------------------3---------2------0----2--------|
E||---------------------------------3--------------------------------------------3----------|

         F       G       Am      G          C        G       C
E||------------------------------------------0-----1---0---------------------------0--------|
B||------------------0---------1---------3-----------------------3---------1-----1---1------|
G||--------2--------------0---------2-----------------------0---------0--------0-------0----|
D||-------------3-------0---0-----2---2---------0---------2---2-----0---0----2-----------2--|
A||-----------3---3------------0---------2-------------3-------------------3----------------|
E||--------1---------3-------------------------------------------3--------------------------|

( repeat verse )

[Bridge]
         h  h                    h h                     h  h 
E||---0----------------------0-----------------------0-------------------------------------|
B||-0------12--10----------0------12--10-----------0------12--10------10--1--1---1--3-----|
G||-0---12-----------9-----0---12------------9-----0---12-----------9-----2--2--2-2-4-----|
D||---------------10---10-----------------10---10----------------10-------3--3------5-----|
A||------------0-----------------------0----------------------0---------------------------|
E||-0----------------------0-----------------------0---------------------------------------|

[Verse] (high):

      C         G        Am                       F          C         G
E||-------------3---------5-------------------0---1----------3-----------------------0------|
B||---1-----------------------5------------3-----------1----------1----3--------------------|
G||--------0---------0------5---5------0-------------2---2------0---0-------0---------0-----|
D||------2---3-----0---0--------------------------3----------2------------0----------0------|
A||---3---------2---------0--------------------------------------------2------0----2--------|
E||---------------------------------3--------------------------------------------3----------|

         F       G       Am      G          C          G         C
E||------------------------------------------0-----1---0------------------------------------|
B||------------------0---------1---------3--------------------------3-----------1-----------|
G||--------2--------------0---------2-------------------------0-----------0-----------0-----|
D||-------------3-------0---0-----2---2---------0----------2-----2-----0-----0-----2-----2--|
A||-----------3---3------------0---------2-------------3------------------------3-----------|
E||--------1---------3----------------------------------------------3-----------------------|


[Outro]
         F       G       Am      G          C        G       C
E||------------------------------------------0-----1---0---------------------------0-3--8--|
B||------------------0---------1---------3-----------------------3---------1-----1---------|
G||---0----2--------------0---------2-----------------------0---------0--------0--------0--|
D||-------------3-------0---0-----2---2---------0---------2---2-----0---0----2-------------|
A||-----------3---3------------0---------2-------------3-------------------3---------------|
E||--------1---------3-------------------------------------------3----------------------8--|


<< Back Add New Comment
Rosario
1/21/2021 11:16:32 PM
XP
http://canadianonlinepharmacykkr.com/
Paul
1/21/2021 8:23:37 PM
PI
http://canadianpharmacyhopemeds.com/
Harry
1/21/2021 8:22:14 PM
AQ
http://canadianpharmacynethd.com/
Hayden
1/21/2021 8:09:15 PM
CE
http://canadianpharmacieshq.com/
Francesca
1/21/2021 4:01:34 PM
PI
http://canadianbestpharmacyonline.com/
Jefferey
1/21/2021 3:48:50 PM
GZ
http://canadianfastpharmacy.com/
Trisha
1/21/2021 3:40:19 PM
YY
http://canadianpharmaciespreshd.com/
Ezra
1/21/2021 1:23:53 PM
PY
http://canadianfastpharmacy.com/
Blanca
1/21/2021 12:51:37 PM
ND
http://canadianpharmaciesdepot.com/
Laurel
1/21/2021 12:37:02 PM
SI
http://canadianpharmacyhub.com/
Vonnie
1/21/2021 12:01:11 PM
YG
http://canadiannextpharmacy.com/
Sue
1/21/2021 10:54:52 AM
JK
http://canadianpharmaciespreshd.com/
Noreen
1/21/2021 8:13:16 AM
AM
http://canadianpharmacieshq.com/
Tiara
1/21/2021 6:56:11 AM
NH
http://canadianbestpharmacyonline.com/
Quinn
1/21/2021 6:45:29 AM
QR
http://canadianpharmacycenterhd.com/
Tiffiny
1/21/2021 6:38:52 AM
KX
http://canadianpharmaciespreshd.com/
Michaela
1/21/2021 4:18:23 AM
AT
http://canadianonlinepharmacynote.com/
Paulette
1/21/2021 3:39:15 AM
UL
http://canadianpharmacieselite.com/
Leta
1/21/2021 3:38:00 AM
RB
http://canadianpharmacynethd.com/
Corina
1/21/2021 1:42:44 AM
GS
http://canadianpharmacycenterhd.com/
3482 items total 1  2  3  4  5  ...  175 
Add New Comment
Name*
Subject*
Comment*
Please type the confirmation code you see on the image*
Reload image
HomeRepertoireTestimonialsPricesContact UsPhotosBlog